[NEW] Chords Kunci Gitar The Changcuters main serong [solo tab] Lirik Terjemahan Arti Lagu

solo; 
|--7-6-5-7-6-5-5--5--5--)             2x
|--------------6-----6--)             2x
|-----------------------
|-----------------------
|-----------------------
|-----------------------

|--9-8-7-9-8-7-7--7--7--)            
|--------------8-----8--)    lirik terjemahan arti indonesia The Changcuters main serong [solo tab] download mp3   chords The Changcuters main serong [solo tab] lyrics        cord kord chord The Changcuters main serong [solo tab] kunci gitar
|-----------------------
|-----------------------
|-----------------------
|-----------------------

|--7-6-5-7-6-5-5--5--5--)
|--------------6-----6--)
|-----------------------
|-----------------------
|-----------------------
|-----------------------

|--9-8-7---7-6-5--
|-----------------
|-----------------
|-----------------
|-----------------
|-----------------

Lbh cpt sedikit daripada di atz
|---7-6-5--7-6-5-7-6-5-7-6-5-6-5-5-
|--------------------------------6-
|----------------------------------
|----------------------------------
|----------------------------------
|----------------------------------

maaf klo solo ny agk meleset ya......

bambang 

cbamz@yahoo.co.id
|